  0
SECTION
  2
HEADER
  9
$ACADVER
  1
AC1009
  9
$DWGCODEPAGE
  3
ansi_1252
  9
$INSBASE
 10
0.0
 20
0.0
 30
0.0
  9
$EXTMIN
 10
1.000000000000000E+20
 20
1.000000000000000E+20
 30
1.000000000000000E+20
  9
$EXTMAX
 10
-1.000000000000000E+20
 20
-1.000000000000000E+20
 30
-1.000000000000000E+20
  9
$LIMMIN
 10
0.0
 20
0.0
  9
$LIMMAX
 10
12.0
 20
9.0
  9
$ORTHOMODE
 70
     0
  9
$REGENMODE
 70
     1
  9
$FILLMODE
 70
     1
  9
$QTEXTMODE
 70
     0
  9
$MIRRTEXT
 70
     1
  9
$DRAGMODE
 70
     2
  9
$LTSCALE
 40
1.0
  9
$OSMODE
 70
    37
  9
$ATTMODE
 70
     1
  9
$TEXTSIZE
 40
0.2
  9
$TRACEWID
 40
0.05
  9
$TEXTSTYLE
  7
STANDARD
  9
$CLAYER
  8
$TD_AUDIT_GENERATED__2B_
  9
$CELTYPE
  6
BYLAYER
  9
$CECOLOR
 62
   256
  9
$DIMSCALE
 40
1.0
  9
$DIMASZ
 40
0.18
  9
$DIMEXO
 40
0.0625
  9
$DIMDLI
 40
0.38
  9
$DIMRND
 40
0.0
  9
$DIMDLE
 40
0.0
  9
$DIMEXE
 40
0.18
  9
$DIMTP
 40
0.0
  9
$DIMTM
 40
0.0
  9
$DIMTXT
 40
0.18
  9
$DIMCEN
 40
0.09
  9
$DIMTSZ
 40
0.0
  9
$DIMTOL
 70
     0
  9
$DIMLIM
 70
     0
  9
$DIMTIH
 70
     1
  9
$DIMTOH
 70
     1
  9
$DIMSE1
 70
     0
  9
$DIMSE2
 70
     0
  9
$DIMTAD
 70
     0
  9
$DIMZIN
 70
     0
  9
$DIMBLK
  1

  9
$DIMASO
 70
     1
  9
$DIMSHO
 70
     1
  9
$DIMPOST
  1

  9
$DIMAPOST
  1

  9
$DIMALT
 70
     0
  9
$DIMALTD
 70
     2
  9
$DIMALTF
 40
25.4
  9
$DIMLFAC
 40
1.0
  9
$DIMTOFL
 70
     0
  9
$DIMTVP
 40
0.0
  9
$DIMTIX
 70
     0
  9
$DIMSOXD
 70
     0
  9
$DIMSAH
 70
     0
  9
$DIMBLK1
  1

  9
$DIMBLK2
  1

  9
$DIMSTYLE
  2
STANDARD_ACAD
  9
$DIMCLRD
 70
     0
  9
$DIMCLRE
 70
     0
  9
$DIMCLRT
 70
     0
  9
$DIMTFAC
 40
1.0
  9
$DIMGAP
 40
0.09
  9
$LUNITS
 70
     2
  9
$LUPREC
 70
     3
  9
$SKETCHINC
 40
0.1
  9
$FILLETRAD
 40
0.5
  9
$AUNITS
 70
     0
  9
$AUPREC
 70
     0
  9
$MENU
  1
.
  9
$ELEVATION
 40
0.0
  9
$PELEVATION
 40
0.0
  9
$THICKNESS
 40
0.0
  9
$LIMCHECK
 70
     0
  9
$CHAMFERA
 40
0.0
  9
$CHAMFERB
 40
0.0
  9
$SKPOLY
 70
     0
  9
$TDCREATE
 40
2458675.496441134
  9
$TDUPDATE
 40
2458675.496451204
  9
$TDINDWG
 40
0.0000000116
  9
$TDUSRTIMER
 40
0.0000000116
  9
$USRTIMER
 70
     1
  9
$ANGBASE
 50
0.0
  9
$ANGDIR
 70
     0
  9
$PDMODE
 70
     0
  9
$PDSIZE
 40
0.0
  9
$PLINEWID
 40
0.0
  9
$COORDS
 70
     1
  9
$SPLFRAME
 70
     0
  9
$SPLINETYPE
 70
     6
  9
$SPLINESEGS
 70
     8
  9
$ATTDIA
 70
     0
  9
$ATTREQ
 70
     1
  9
$HANDLING
 70
     1
  9
$HANDSEED
  5
10C
  9
$SURFTAB1
 70
     6
  9
$SURFTAB2
 70
     6
  9
$SURFTYPE
 70
     6
  9
$SURFU
 70
     6
  9
$SURFV
 70
     6
  9
$UCSNAME
  2

  9
$UCSORG
 10
0.0
 20
0.0
 30
0.0
  9
$UCSXDIR
 10
1.0
 20
0.0
 30
0.0
  9
$UCSYDIR
 10
0.0
 20
1.0
 30
0.0
  9
$PUCSNAME
  2

  9
$PUCSORG
 10
0.0
 20
0.0
 30
0.0
  9
$PUCSXDIR
 10
1.0
 20
0.0
 30
0.0
  9
$PUCSYDIR
 10
0.0
 20
1.0
 30
0.0
  9
$USERI1
 70
     0
  9
$USERI2
 70
     0
  9
$USERI3
 70
     0
  9
$USERI4
 70
     0
  9
$USERI5
 70
     0
  9
$USERR1
 40
0.0
  9
$USERR2
 40
0.0
  9
$USERR3
 40
0.0
  9
$USERR4
 40
0.0
  9
$USERR5
 40
0.0
  9
$WORLDVIEW
 70
     1
  9
$SHADEDGE
 70
     3
  9
$SHADEDIF
 70
    70
  9
$TILEMODE
 70
     1
  9
$MAXACTVP
 70
    64
  9
$PLIMCHECK
 70
     0
  9
$PEXTMIN
 10
1.000000000000000E+20
 20
1.000000000000000E+20
 30
1.000000000000000E+20
  9
$PEXTMAX
 10
-1.000000000000000E+20
 20
-1.000000000000000E+20
 30
-1.000000000000000E+20
  9
$PLIMMIN
 10
0.0
 20
0.0
  9
$PLIMMAX
 10
12.0
 20
9.0
  9
$UNITMODE
 70
     0
  9
$VISRETAIN
 70
     1
  9
$PLINEGEN
 70
     0
  9
$PSLTSCALE
 70
     1
  0
ENDSEC
  0
SECTION
  2
TABLES
  0
TABLE
  2
VPORT
 70
     1
  0
VPORT
  2
*ACTIVE
 70
     0
 10
0.0
 20
0.0
 11
1.0
 21
1.0
 12
10.42990654205607
 22
4.5
 13
0.0
 23
0.0
 14
0.5
 24
0.5
 15
0.5
 25
0.5
 16
0.0
 26
0.0
 36
1.0
 17
0.0
 27
0.0
 37
0.0
 40
9.0
 41
1.972972972850329
 42
50.0
 43
0.0
 44
0.0
 50
0.0
 51
0.0
 71
     0
 72
   100
 73
     1
 74
     3
 75
     0
 76
     0
 77
     0
 78
     0
  0
ENDTAB
  0
TABLE
  2
LTYPE
 70
     1
  0
LTYPE
  2
CONTINUOUS
 70
     0
  3
Solid line
 72
    65
 73
     0
 40
0.0
  0
ENDTAB
  0
TABLE
  2
LAYER
 70
     2
  0
LAYER
  2
0
 70
     0
 62
     7
  6
CONTINUOUS
  0
LAYER
  2
$TD_AUDIT_GENERATED__2B_
 70
     0
 62
     7
  6
CONTINUOUS
  0
ENDTAB
  0
TABLE
  2
STYLE
 70
     1
  0
STYLE
  2
STANDARD
 70
     0
 40
0.0
 41
1.0
 50
0.0
 71
     0
 42
0.2
  3
txt
  4

  0
ENDTAB
  0
TABLE
  2
VIEW
 70
     0
  0
ENDTAB
  0
TABLE
  2
UCS
 70
     0
  0
ENDTAB
  0
TABLE
  2
APPID
 70
     1
  0
APPID
  2
ACAD
 70
     0
  0
ENDTAB
  0
TABLE
  2
DIMSTYLE
 70
     1
  0
DIMSTYLE
  2
STANDARD_ACAD
 70
     0
  3

  4

  5

  6

  7

 40
1.0
 41
0.18
 42
0.0625
 43
0.38
 44
0.18
 45
0.0
 46
0.0
 47
0.0
 48
0.0
140
0.18
141
0.09
142
0.0
143
25.4
144
1.0
145
0.0
146
1.0
147
0.09
 71
     0
 72
     0
 73
     1
 74
     1
 75
     0
 76
     0
 77
     0
 78
     0
170
     0
171
     2
172
     0
173
     0
174
     0
175
     0
176
     0
177
     0
178
     0
  0
ENDTAB
  0
ENDSEC
  0
SECTION
  2
BLOCKS
  0
BLOCK
  8
0
  2
$MODEL_SPACE
 70
     0
 10
0.0
 20
0.0
 30
0.0
  3
$MODEL_SPACE
  1

  0
ENDBLK
  5
21
  8
0
  0
BLOCK
 67
     1
  8
0
  2
$PAPER_SPACE
 70
     0
 10
0.0
 20
0.0
 30
0.0
  3
$PAPER_SPACE
  1

  0
ENDBLK
  5
1D
 67
     1
  8
0
  0
ENDSEC
  0
SECTION
  2
ENTITIES
  0
LINE
  5
6F
  8
$TD_AUDIT_GENERATED__2B_
 10
59.01109605420487
 20
84.18633718612992
 30
0.0
 11
0.0
 21
87.93542212470906
 31
0.0
  0
LINE
  5
70
  8
$TD_AUDIT_GENERATED__2B_
 10
0.0
 20
0.0000000000000142
 30
0.0
 11
200.0
 21
0.0000000000000142
 31
0.0
  0
LINE
  5
71
  8
$TD_AUDIT_GENERATED__2B_
 10
200.0
 20
59.06735751295336
 30
0.0
 11
200.0
 21
0.0000000000000142
 31
0.0
  0
POLYLINE
  5
72
  8
$TD_AUDIT_GENERATED__2B_
 66
     1
 10
0.0
 20
0.0
 30
0.0
  0
VERTEX
  5
73
  8
$TD_AUDIT_GENERATED__2B_
 10
0.0
 20
106.1777600637704
 30
0.0
  0
VERTEX
  5
74
  8
$TD_AUDIT_GENERATED__2B_
 10
21.61630370665604
 20
101.7232044639298
 30
0.0
  0
VERTEX
  5
75
  8
$TD_AUDIT_GENERATED__2B_
 10
37.8636970904743
 20
93.72846153846153
 30
0.0
  0
VERTEX
  5
76
  8
$TD_AUDIT_GENERATED__2B_
 10
59.01109605420487
 20
84.18633718612992
 30
0.0
  0
VERTEX
  5
77
  8
$TD_AUDIT_GENERATED__2B_
 10
78.35322439218812
 20
80.31791151853328
 30
0.0
  0
VERTEX
  5
78
  8
$TD_AUDIT_GENERATED__2B_
 10
102.337465125548
 20
79.80212036667994
 30
0.0
  0
VERTEX
  5
79
  8
$TD_AUDIT_GENERATED__2B_
 10
123.7427580709446
 20
78.51264248704663
 30
0.0
  0
VERTEX
  5
7A
  8
$TD_AUDIT_GENERATED__2B_
 10
146.4375209246712
 20
75.9336946990833
 30
0.0
  0
VERTEX
  5
7B
  8
$TD_AUDIT_GENERATED__2B_
 10
171.1954643284177
 20
69.74420884814667
 30
0.0
  0
VERTEX
  5
7C
  8
$TD_AUDIT_GENERATED__2B_
 10
200.0
 20
59.06735751295336
 30
0.0
  0
SEQEND
  5
7D
  8
$TD_AUDIT_GENERATED__2B_
  0
LINE
  5
7E
  8
$TD_AUDIT_GENERATED__2B_
 10
0.0
 20
106.1777600637704
 30
0.0
 11
0.0
 21
0.0000000000000142
 31
0.0
  0
LINE
  5
7F
  8
$TD_AUDIT_GENERATED__2B_
 10
0.0
 20
68.95812151037325
 30
0.0
 11
200.0
 21
50.43591091379116
 31
0.0
  0
POLYLINE
  5
80
  8
$TD_AUDIT_GENERATED__2B_
 66
     1
 10
0.0
 20
0.0
 30
0.0
 70
     1
  0
VERTEX
  5
81
  8
$TD_AUDIT_GENERATED__2B_
 10
105.3898307426598
 20
48.27558001170501
 30
0.0
  0
VERTEX
  5
82
  8
$TD_AUDIT_GENERATED__2B_
 10
106.1761381692573
 20
48.02524495125595
 30
0.0
  0
VERTEX
  5
83
  8
$TD_AUDIT_GENERATED__2B_
 10
106.9378100172711
 20
47.70666809460656
 30
0.0
  0
VERTEX
  5
84
  8
$TD_AUDIT_GENERATED__2B_
 10
107.6690431778929
 20
47.322281220686
 30
0.0
  0
VERTEX
  5
85
  8
$TD_AUDIT_GENERATED__2B_
 10
108.3642970639033
 20
46.87499141066874
 30
0.0
  0
VERTEX
  5
86
  8
$TD_AUDIT_GENERATED__2B_
 10
109.0182659758204
 20
46.36823631567737
 30
0.0
  0
VERTEX
  5
87
  8
$TD_AUDIT_GENERATED__2B_
 10
109.6259481865285
 20
45.80584598752538
 30
0.0
  0
VERTEX
  5
88
  8
$TD_AUDIT_GENERATED__2B_
 10
110.199170984456
 20
45.19607189426113
 30
0.0
  0
VERTEX
  5
89
  8
$TD_AUDIT_GENERATED__2B_
 10
110.7159516407599
 20
44.53862111705907
 30
0.0
  0
VERTEX
  5
8A
  8
$TD_AUDIT_GENERATED__2B_
 10
111.1722694300518
 20
43.8385782845893
 30
0.0
  0
VERTEX
  5
8B
  8
$TD_AUDIT_GENERATED__2B_
 10
111.5645457685665
 20
43.10143147975337
 30
0.0
  0
VERTEX
  5
8C
  8
$TD_AUDIT_GENERATED__2B_
 10
111.8897547495682
 20
42.332878802724
 30
0.0
  0
VERTEX
  5
8D
  8
$TD_AUDIT_GENERATED__2B_
 10
112.1453540587219
 20
41.53893061619551
 30
0.0
  0
VERTEX
  5
8E
  8
$TD_AUDIT_GENERATED__2B_
 10
112.3293678756477
 20
40.72573545211952
 30
0.0
  0
VERTEX
  5
8F
  8
$TD_AUDIT_GENERATED__2B_
 10
112.4403454231434
 20
39.89964356956337
 30
0.0
  0
VERTEX
  5
90
  8
$TD_AUDIT_GENERATED__2B_
 10
112.4774438687392
 20
39.06706878545284
 30
0.0
  0
VERTEX
  5
91
  8
$TD_AUDIT_GENERATED__2B_
 10
112.4401658031088
 20
38.36836066800897
 30
0.0
  0
VERTEX
  5
92
  8
$TD_AUDIT_GENERATED__2B_
 10
112.3286079447323
 20
37.67511714469291
 30
0.0
  0
VERTEX
  5
93
  8
$TD_AUDIT_GENERATED__2B_
 10
112.1436960276338
 20
36.99276688562557
 30
0.0
  0
VERTEX
  5
94
  8
$TD_AUDIT_GENERATED__2B_
 10
111.8867979274611
 20
36.32663355229221
 30
0.0
  0
VERTEX
  5
95
  8
$TD_AUDIT_GENERATED__2B_
 10
111.56
 20
35.68192198061693
 30
0.0
  0
VERTEX
  5
96
  8
$TD_AUDIT_GENERATED__2B_
 10
109.9140863557858
 20
34.92840211878619
 30
0.0
  0
VERTEX
  5
97
  8
$TD_AUDIT_GENERATED__2B_
 10
108.216884283247
 20
34.33649469218859
 30
0.0
  0
VERTEX
  5
98
  8
$TD_AUDIT_GENERATED__2B_
 10
106.4808981001727
 20
33.91056446766356
 30
0.0
  0
VERTEX
  5
99
  8
$TD_AUDIT_GENERATED__2B_
 10
104.7188670120898
 20
33.65374374227495
 30
0.0
  0
VERTEX
  5
9A
  8
$TD_AUDIT_GENERATED__2B_
 10
102.9437651122625
 20
33.56793234331123
 30
0.0
  0
VERTEX
  5
9B
  8
$TD_AUDIT_GENERATED__2B_
 10
101.1686632124352
 20
33.65374374227495
 30
0.0
  0
VERTEX
  5
9C
  8
$TD_AUDIT_GENERATED__2B_
 10
99.40663212435233
 20
33.91056446766356
 30
0.0
  0
VERTEX
  5
9D
  8
$TD_AUDIT_GENERATED__2B_
 10
97.67063212435232
 20
34.33649469218859
 30
0.0
  0
VERTEX
  5
9E
  8
$TD_AUDIT_GENERATED__2B_
 10
95.97343005181347
 20
34.92840211878619
 30
0.0
  0
VERTEX
  5
9F
  8
$TD_AUDIT_GENERATED__2B_
 10
94.32753022452505
 20
35.68192198061693
 30
0.0
  0
VERTEX
  5
A0
  8
$TD_AUDIT_GENERATED__2B_
 10
94.00071295336787
 20
36.32663355229221
 30
0.0
  0
VERTEX
  5
A1
  8
$TD_AUDIT_GENERATED__2B_
 10
93.7438341968912
 20
36.99276688562557
 30
0.0
  0
VERTEX
  5
A2
  8
$TD_AUDIT_GENERATED__2B_
 10
93.55889464594128
 20
37.67511714469291
 30
0.0
  0
VERTEX
  5
A3
  8
$TD_AUDIT_GENERATED__2B_
 10
93.44735889464594
 20
38.36836066800897
 30
0.0
  0
VERTEX
  5
A4
  8
$TD_AUDIT_GENERATED__2B_
 10
93.41008635578584
 20
39.06706878545284
 30
0.0
  0
VERTEX
  5
A5
  8
$TD_AUDIT_GENERATED__2B_
 10
93.4558341968912
 20
39.99459900997789
 30
0.0
  0
VERTEX
  5
A6
  8
$TD_AUDIT_GENERATED__2B_
 10
93.59263557858375
 20
40.9132380427931
 30
0.0
  0
VERTEX
  5
A7
  8
$TD_AUDIT_GENERATED__2B_
 10
93.81916407599309
 20
41.81414995989154
 30
0.0
  0
VERTEX
  5
A8
  8
$TD_AUDIT_GENERATED__2B_
 10
94.13326424870466
 20
42.68871990807806
 30
0.0
  0
VERTEX
  5
A9
  8
$TD_AUDIT_GENERATED__2B_
 10
94.53192400690845
 20
43.52851265419205
 30
0.0
  0
VERTEX
  5
AA
  8
$TD_AUDIT_GENERATED__2B_
 10
95.01130224525043
 20
44.32550056438203
 30
0.0
  0
VERTEX
  5
AB
  8
$TD_AUDIT_GENERATED__2B_
 10
95.56679792746115
 20
45.07201524486563
 30
0.0
  0
VERTEX
  5
AC
  8
$TD_AUDIT_GENERATED__2B_
 10
96.1930970639033
 20
45.76091334503834
 30
0.0
  0
VERTEX
  5
AD
  8
$TD_AUDIT_GENERATED__2B_
 10
96.80457340241796
 20
46.33191161792262
 30
0.0
  0
VERTEX
  5
AE
  8
$TD_AUDIT_GENERATED__2B_
 10
97.4636200345423
 20
46.84663355229222
 30
0.0
  0
VERTEX
  5
AF
  8
$TD_AUDIT_GENERATED__2B_
 10
98.16511226252157
 20
47.30107776645458
 30
0.0
  0
VERTEX
  5
B0
  8
$TD_AUDIT_GENERATED__2B_
 10
98.90362694300518
 20
47.69173199788808
 30
0.0
  0
VERTEX
  5
B1
  8
$TD_AUDIT_GENERATED__2B_
 10
99.67343696027633
 20
48.01558001170501
 30
0.0
  0
VERTEX
  5
B2
  8
$TD_AUDIT_GENERATED__2B_
 10
100.4685872193437
 20
48.27009469218859
 30
0.0
  0
VERTEX
  5
B3
  8
$TD_AUDIT_GENERATED__2B_
 10
101.2829153713299
 20
48.45331403588462
 30
0.0
  0
VERTEX
  5
B4
  8
$TD_AUDIT_GENERATED__2B_
 10
102.1101070811744
 20
48.56382042621279
 30
0.0
  0
VERTEX
  5
B5
  8
$TD_AUDIT_GENERATED__2B_
 10
102.9437651122625
 20
48.60074754192952
 30
0.0
  0
VERTEX
  5
B6
  8
$TD_AUDIT_GENERATED__2B_
 10
103.7674749568221
 20
48.56443666110052
 30
0.0
  0
VERTEX
  5
B7
  8
$TD_AUDIT_GENERATED__2B_
 10
104.5848981001727
 20
48.45576654020241
 30
0.0
  0
SEQEND
  5
B8
  8
$TD_AUDIT_GENERATED__2B_
  0
LINE
  5
B9
  8
$TD_AUDIT_GENERATED__2B_
 10
120.2859859758815
 20
57.81830969005927
 30
0.0
 11
151.2953367875648
 21
40.41450777202072
 31
0.0
  0
POLYLINE
  5
BA
  8
$TD_AUDIT_GENERATED__2B_
 66
     1
 10
0.0
 20
0.0
 30
0.0
  0
VERTEX
  5
BB
  8
$TD_AUDIT_GENERATED__2B_
 10
92.58107081174438
 20
34.50748329322487
 30
0.0
  0
VERTEX
  5
BC
  8
$TD_AUDIT_GENERATED__2B_
 10
92.58107081174438
 20
39.06706878545284
 30
0.0
  0
VERTEX
  5
BD
  8
$TD_AUDIT_GENERATED__2B_
 10
92.6205043177893
 20
39.97023976990881
 30
0.0
  0
VERTEX
  5
BE
  8
$TD_AUDIT_GENERATED__2B_
 10
92.73850777202072
 20
40.86652992534923
 30
0.0
  0
VERTEX
  5
BF
  8
$TD_AUDIT_GENERATED__2B_
 10
92.93416787564767
 20
41.74912750738721
 30
0.0
  0
VERTEX
  5
C0
  8
$TD_AUDIT_GENERATED__2B_
 10
93.20602417962003
 20
42.61131196334576
 30
0.0
  0
VERTEX
  5
C1
  8
$TD_AUDIT_GENERATED__2B_
 10
93.55197236614853
 20
43.44653683381208
 30
0.0
  0
VERTEX
  5
C2
  8
$TD_AUDIT_GENERATED__2B_
 10
93.96940932642488
 20
44.2484159357119
 30
0.0
  0
VERTEX
  5
C3
  8
$TD_AUDIT_GENERATED__2B_
 10
94.45514335060449
 20
45.01086153156684
 30
0.0
  0
VERTEX
  5
C4
  8
$TD_AUDIT_GENERATED__2B_
 10
95.00548531951641
 20
45.72807880272401
 30
0.0
  0
VERTEX
  5
C5
  8
$TD_AUDIT_GENERATED__2B_
 10
95.6162348877375
 20
46.3945990099779
 30
0.0
  0
VERTEX
  5
C6
  8
$TD_AUDIT_GENERATED__2B_
 10
96.36974093264249
 20
47.07753510669637
 30
0.0
  0
VERTEX
  5
C7
  8
$TD_AUDIT_GENERATED__2B_
 10
97.1865561312608
 20
47.6833313070418
 30
0.0
  0
VERTEX
  5
C8
  8
$TD_AUDIT_GENERATED__2B_
 10
98.05881865284972
 20
48.20614995989153
 30
0.0
  0
VERTEX
  5
C9
  8
$TD_AUDIT_GENERATED__2B_
 10
98.9781347150259
 20
48.64095479581555
 30
0.0
  0
VERTEX
  5
CA
  8
$TD_AUDIT_GENERATED__2B_
 10
99.9356407599309
 20
48.98355099616097
 30
0.0
  0
VERTEX
  5
CB
  8
$TD_AUDIT_GENERATED__2B_
 10
100.9221001727116
 20
49.23064736921796
 30
0.0
  0
VERTEX
  5
CC
  8
$TD_AUDIT_GENERATED__2B_
 10
101.9280276338515
 20
49.37987016714543
 30
0.0
  0
VERTEX
  5
CD
  8
$TD_AUDIT_GENERATED__2B_
 10
102.9437651122625
 20
49.42976308597098
 30
0.0
  0
VERTEX
  5
CE
  8
$TD_AUDIT_GENERATED__2B_
 10
103.8469360967185
 20
49.39032957992607
 30
0.0
  0
VERTEX
  5
CF
  8
$TD_AUDIT_GENERATED__2B_
 10
104.7432400690846
 20
49.27231921723178
 30
0.0
  0
VERTEX
  5
D0
  8
$TD_AUDIT_GENERATED__2B_
 10
105.6258376511226
 20
49.07666325868255
 30
0.0
  0
VERTEX
  5
D1
  8
$TD_AUDIT_GENERATED__2B_
 10
106.4880276338514
 20
48.80480971809533
 30
0.0
  0
VERTEX
  5
D2
  8
$TD_AUDIT_GENERATED__2B_
 10
107.323219343696
 20
48.45886153156684
 30
0.0
  0
VERTEX
  5
D3
  8
$TD_AUDIT_GENERATED__2B_
 10
108.1251122625216
 20
48.04141628113506
 30
0.0
  0
VERTEX
  5
D4
  8
$TD_AUDIT_GENERATED__2B_
 10
108.8875578583765
 20
47.55569054711088
 30
0.0
  0
VERTEX
  5
D5
  8
$TD_AUDIT_GENERATED__2B_
 10
109.6047668393782
 20
47.00534857819897
 30
0.0
  0
VERTEX
  5
D6
  8
$TD_AUDIT_GENERATED__2B_
 10
110.2712953367876
 20
46.3945990099779
 30
0.0
  0
VERTEX
  5
D7
  8
$TD_AUDIT_GENERATED__2B_
 10
110.8820449050086
 20
45.72807880272401
 30
0.0
  0
VERTEX
  5
D8
  8
$TD_AUDIT_GENERATED__2B_
 10
111.4324006908463
 20
45.01086153156684
 30
0.0
  0
VERTEX
  5
D9
  8
$TD_AUDIT_GENERATED__2B_
 10
111.9181347150259
 20
44.2484159357119
 30
0.0
  0
VERTEX
  5
DA
  8
$TD_AUDIT_GENERATED__2B_
 10
112.3355440414508
 20
43.44653683381208
 30
0.0
  0
VERTEX
  5
DB
  8
$TD_AUDIT_GENERATED__2B_
 10
112.6815198618307
 20
42.61131196334576
 30
0.0
  0
VERTEX
  5
DC
  8
$TD_AUDIT_GENERATED__2B_
 10
112.9533678756477
 20
41.74912750738721
 30
0.0
  0
VERTEX
  5
DD
  8
$TD_AUDIT_GENERATED__2B_
 10
113.1490293609671
 20
40.86652992534923
 30
0.0
  0
VERTEX
  5
DE
  8
$TD_AUDIT_GENERATED__2B_
 10
113.2670397236615
 20
39.97023976990881
 30
0.0
  0
VERTEX
  5
DF
  8
$TD_AUDIT_GENERATED__2B_
 10
113.3064594127806
 20
39.06706878545284
 30
0.0
  0
VERTEX
  5
E0
  8
$TD_AUDIT_GENERATED__2B_
 10
113.3064594127806
 20
34.50748329322487
 30
0.0
  0
SEQEND
  5
E1
  8
$TD_AUDIT_GENERATED__2B_
  0
POLYLINE
  5
E2
  8
$TD_AUDIT_GENERATED__2B_
 66
     1
 10
0.0
 20
0.0
 30
0.0
  0
VERTEX
  5
E3
  8
$TD_AUDIT_GENERATED__2B_
 10
92.58107081174438
 20
34.50748329322487
 30
0.0
  0
VERTEX
  5
E4
  8
$TD_AUDIT_GENERATED__2B_
 10
94.51544041450776
 20
34.50748329322487
 30
0.0
  0
VERTEX
  5
E5
  8
$TD_AUDIT_GENERATED__2B_
 10
96.13586735751296
 20
33.82690850911433
 30
0.0
  0
VERTEX
  5
E6
  8
$TD_AUDIT_GENERATED__2B_
 10
97.79958549222796
 20
33.29303078890707
 30
0.0
  0
VERTEX
  5
E7
  8
$TD_AUDIT_GENERATED__2B_
 10
99.49602763385145
 20
32.90924080617824
 30
0.0
  0
VERTEX
  5
E8
  8
$TD_AUDIT_GENERATED__2B_
 10
101.2143972366149
 20
32.67799244693818
 30
0.0
  0
VERTEX
  5
E9
  8
$TD_AUDIT_GENERATED__2B_
 10
102.9437651122625
 20
32.60074754192954
 30
0.0
  0
VERTEX
  5
EA
  8
$TD_AUDIT_GENERATED__2B_
 10
104.6731329879102
 20
32.67799244693818
 30
0.0
  0
VERTEX
  5
EB
  8
$TD_AUDIT_GENERATED__2B_
 10
106.3915025906735
 20
32.90924080617824
 30
0.0
  0
VERTEX
  5
EC
  8
$TD_AUDIT_GENERATED__2B_
 10
108.087944732297
 20
33.29303078890707
 30
0.0
  0
VERTEX
  5
ED
  8
$TD_AUDIT_GENERATED__2B_
 10
109.7516822107081
 20
33.82690850911433
 30
0.0
  0
VERTEX
  5
EE
  8
$TD_AUDIT_GENERATED__2B_
 10
111.3720898100173
 20
34.50748329322487
 30
0.0
  0
VERTEX
  5
EF
  8
$TD_AUDIT_GENERATED__2B_
 10
113.3064594127806
 20
34.50748329322487
 30
0.0
  0
SEQEND
  5
F0
  8
$TD_AUDIT_GENERATED__2B_
  0
LINE
  5
F1
  8
$TD_AUDIT_GENERATED__2B_
 10
151.2953367875648
 20
40.41450777202072
 30
0.0
 11
200.0
 21
23.15437338096338
 31
0.0
  0
POLYLINE
  5
F2
  8
$TD_AUDIT_GENERATED__2B_
 66
     1
 10
0.0
 20
0.0
 30
0.0
  0
VERTEX
  5
F3
  8
$TD_AUDIT_GENERATED__2B_
 10
108.4941070811744
 20
37.51345220514197
 30
0.0
  0
VERTEX
  5
F4
  8
$TD_AUDIT_GENERATED__2B_
 10
108.4269982728843
 20
39.47325876818169
 30
0.0
  0
VERTEX
  5
F5
  8
$TD_AUDIT_GENERATED__2B_
 10
108.1105215889464
 20
40.85786671291399
 30
0.0
  0
VERTEX
  5
F6
  8
$TD_AUDIT_GENERATED__2B_
 10
107.4775544041451
 20
42.04466464037514
 30
0.0
  0
VERTEX
  5
F7
  8
$TD_AUDIT_GENERATED__2B_
 10
106.7259274611399
 20
43.03366636749085
 30
0.0
  0
VERTEX
  5
F8
  8
$TD_AUDIT_GENERATED__2B_
 10
105.5786666666667
 20
43.90398208424388
 30
0.0
  0
VERTEX
  5
F9
  8
$TD_AUDIT_GENERATED__2B_
 10
104.2336442141623
 20
44.41826740376028
 30
0.0
  0
VERTEX
  5
FA
  8
$TD_AUDIT_GENERATED__2B_
 10
102.8490362694301
 20
44.61607051256856
 30
0.0
  0
VERTEX
  5
FB
  8
$TD_AUDIT_GENERATED__2B_
 10
101.7017892918826
 20
44.49738312051331
 30
0.0
  0
VERTEX
  5
FC
  8
$TD_AUDIT_GENERATED__2B_
 10
100.238079447323
 20
44.02266809460657
 30
0.0
  0
VERTEX
  5
FD
  8
$TD_AUDIT_GENERATED__2B_
 10
98.91428531951641
 20
43.06483735194681
 30
0.0
  0
VERTEX
  5
FE
  8
$TD_AUDIT_GENERATED__2B_
 10
98.17736787564766
 20
42.05772854365664
 30
0.0
  0
VERTEX
  5
FF
  8
$TD_AUDIT_GENERATED__2B_
 10
97.63697409326426
 20
40.85410850911434
 30
0.0
  0
VERTEX
  5
100
  8
$TD_AUDIT_GENERATED__2B_
 10
97.48958894645939
 20
39.55223631567736
 30
0.0
  0
VERTEX
  5
101
  8
$TD_AUDIT_GENERATED__2B_
 10
97.41590328151986
 20
37.56257137612644
 30
0.0
  0
SEQEND
  5
102
  8
$TD_AUDIT_GENERATED__2B_
  0
LINE
  5
103
  8
$TD_AUDIT_GENERATED__2B_
 10
0.0
 20
41.00161948127708
 30
0.0
 11
200.0
 21
7.253886010362693
 31
0.0
  0
LINE
  5
104
  8
$TD_AUDIT_GENERATED__2B_
 10
97.41590328151986
 20
37.56257137612644
 30
0.0
 11
108.4941070811744
 21
37.51345220514197
 31
0.0
  0
ENDSEC
  0
EOF
